Černá Joyce - Tabulatura k base

21. února 2006 v 10:43 | Karel Jačko |  Repertoár
Černa Joyce
TablEdited by Karel Jačko
Ladění : E A D G  Označení taktu: 4/4

Předehra:
| | | | | | | | | | | | | | | |
|----------------|----------------|----------------|----------------|
|----------------|----------------|----------------|3-------3-------|
|--------4---3---|--------4---3---|--------4---3---|----------------|
|1---------------|1---------------|1---------------|----------------|
Verze 1:
| | | | | | | | | | | | | | | |
|----------------|----------------|----------------|----------------|
|--------3-------|--------3-------|----------------|--------3-------|
|1---------------|1---------------|--------4---3---|----------------|
|----------------|----------------|1---------------|1---------------|
| | | | | | | | | | | | | | | |
|----------------|----------------|----------------|----------------|
|----------------|--------3-------|----------------|----------------|
|1---------------|1-----------1---|--------4---3---|--------3-------|
|--------1-------|----------------|1---------------|1---------------|
| | | | | | | | | | | | | | | |
|----------------|--------2-------|----------------|----------------|
|3---------------|----------------|--------3-------|----------------|
|----------------|0-----------0---|1---------------|----------------|
|----------------|----------------|----------------|----------------|
| | | | | | | | | | | | | | | |
|----------------|0---------------|----------------|----------------|
|--------0-------|----------------|3---------------|3---------------|
|----------------|--------3-------|--------4---3---|----------------|
|1---------------|----------------|----------------|----------------|
Verze 2:
| | | | | | | | | | | | | | | |
|----------------|----------------|----------------|----------------|
|----------------|----0---3-------|3---------------|----3---3---3---|
|1---0-----------|1-----------1---|----3---4---3---|----------------|
|--------3---1---|----------------|----------------|1---------------|
| | | | | | | | | | | | | | | |
|----------------|3---2---0-------|----------------|----------------|
|--------0---3---|------------3---|3---------------|3-----------4---|
|1---3-----------|----------------|----3---4---3---|----2---3-------|
|----------------|----------------|----------------|----------------|
| | | | | | | | | | | | | | | |
|----0---2-------|----------------|----------------|----------------|
|3---------------|------------2---|----------------|----3---0---2---|
|----------------|0---2---4-------|1-----------1---|2---------------|
|------------4---|----------------|--------1-------|----------------|
| | | | | | | | | | | | | | | |
|----------------|----------------|----------------|----5---2-------|
|----3---0---0---|----------------|----------------|3---------------|
|----------------|----2---3---3---|--------4---3---|------------0---|
|1---------------|3---------------|1---1-----------|----------------|
 

Buď první, kdo ohodnotí tento článek.

Komentáře

Zobrazit vše (424)
Zobrazit starší komentáře

401 canadianpharmacy canadianpharmacy | E-mail | Web | 3. dubna 2018 v 22:41 | Reagovat

online pharmacy no prescription needed
best canadian pharmacies
drugs for sale

402 Aaegb#gennico[YodeSR,3,4] Aaegb#gennico[YodeSR,3,4] | E-mail | Web | 5. dubna 2018 v 10:04 | Reagovat

lasix furosemide tablet lasix <a href=http://lasixf.com/#>buy lasix</a> furosemide 40 <a href=http://furosemide40.com/#>furosemide 40 mg</a> furosemide lasix mims.

403 BrdHoash BrdHoash | E-mail | Web | 6. dubna 2018 v 16:36 | Reagovat

Jen, that sounds like it could be acid reflux. viagra canada <a href="http://viagra-onlinenas.com/">buy generic viagra online</a> viagra buying <a href=http://viagra-onlinenas.com/>online pharmacy viagra</a>  Regular insulin begins to act 30 minutes after injection, reaches its peak at 2 - 4 hours, and lasts about 6 hours. OK’

404 bsdfHoash bsdfHoash | E-mail | Web | 14. dubna 2018 v 4:23 | Reagovat

viagra patent expiration date <a href="http://viagapharmaked.com/#">brand viagra</a> viagra <a href=http://viagapharmaked.com/#>cheapest viagra</a> OK’

405 bsrDaype bsrDaype | E-mail | Web | 14. dubna 2018 v 4:49 | Reagovat

viagra canada online pharmacy <a href="http://fviagrajjj.com/#">viagra 100mg pills</a> free sample viagra <a href="http://fviagrajjj.com/#">female viagra</a> OK’

406 bgfHoash bgfHoash | E-mail | Web | 15. dubna 2018 v 16:30 | Reagovat

buy cheap purchase uk viagra <a href="http://loviagraosn.com/#">viagra order</a> order viagra online <a href=http://loviagraosn.com/#>viagra online uk</a> OK’

407 wbzViews wbzViews | E-mail | Web | 16. dubna 2018 v 17:37 | Reagovat

viagra brand by online <a href="http://junkmarketstyleevents.com/#">best price viagra</a> viagra canada pharmacy <a href=http://junkmarketstyleevents.com/#>buy viagra in canada</a> OK’

408 fdwDaype fdwDaype | E-mail | Web | 17. dubna 2018 v 4:34 | Reagovat

buy cheap brand viagra <a href="http://viagraveikd.com/#">viagra coupon</a> taking viagra <a href="http://viagraveikd.com/#">viagra</a>

409 dczHoash dczHoash | E-mail | Web | 17. dubna 2018 v 11:39 | Reagovat

buy viagra <a href="http://menedkkr.com/#">natural viagra alternatives</a> viagra pharmacy <a href=http://menedkkr.com/#>online viagra</a>

410 iosDaype iosDaype | E-mail | Web | 18. dubna 2018 v 5:25 | Reagovat

viagra online uk <a href="http://officialsaintsnflproshop.com/#">cheap viagra</a> viagra brand price viagra price

411 nsafExetle nsafExetle | E-mail | Web | 27. dubna 2018 v 6:22 | Reagovat

https://ttsitworldwide.com/
cash check advances <a href="https://ttsitworldwide.com/">online florida payday loan</a>

412 viagra without a doctors prescription viagra without a doctors prescription | E-mail | Web | 29. dubna 2018 v 1:23 | Reagovat

rheumatoid arthritis prognosis arthritis pain reliever
http://edwithoutdoctors.com/# viagra without a doctor prescription
gastrointestinal signs and symptoms asthma and diet
<a href="http://edwithoutdoctors.com/#">viagra without a doctor prescription</a>

413 bysAmove bysAmove | E-mail | Web | 30. dubna 2018 v 5:22 | Reagovat

loans <a href="https://cashadvanceonline.us.org/#">loan</a> bad credit personal installment loan <a href=https://cashadvanceonline.us.org/#>pay pay loans</a>

414 assotomeged assotomeged | E-mail | Web | 1. května 2018 v 12:29 | Reagovat

I am sure this post has touched all the internet users, its really really pleasant piece of writing on building up new blog.

415 nfsExetle nfsExetle | E-mail | Web | 2. května 2018 v 0:04 | Reagovat

consolidate credit card debt <a href="https://onlinepaydayloan.us.org/#">loan online</a> loans no credit check <a href="https://onlinepaydayloan.us.org/#">loans online</a>

416 bhrClexy bhrClexy | E-mail | Web | 2. května 2018 v 10:40 | Reagovat

generic viagra sale <a href="http://viagraazmhj.com/#">buy viagra</a> cheap female viagra <a href=http://viagraazmhj.com/#>viagra buy</a>

417 bhrClexy bhrClexy | E-mail | Web | 3. května 2018 v 7:18 | Reagovat

viagra and women <a href="http://viagraazmhj.com/#">viagra buy</a> viagra sample <a href=http://viagraazmhj.com/#>generic viagra</a>

418 bdfdronee bdfdronee | E-mail | Web | 5. května 2018 v 19:32 | Reagovat

liquid tadalafil <a href="http://cialisotjs.com/#">cialis reviews</a> cialis price <a href="http://cialisotjs.com/#">generic tadalafil</a>

419 vsfAreria vsfAreria | E-mail | Web | 7. května 2018 v 23:02 | Reagovat

viagra generic india <a href="http://fviagrajjj.com/#">viagra online</a> cheap viagra online <a href="http://fviagrajjj.com/#">best place to buy generic viagra online</a>

420 bdcseard bdcseard | E-mail | Web | 9. května 2018 v 4:46 | Reagovat

buy female viagra <a href="http://usa77www.com/#">buy viagra</a> low cost viagra <a href=http://usa77www.com/#>soft tabs viagra</a>

421 llqExetle llqExetle | E-mail | Web | 11. května 2018 v 13:13 | Reagovat

no credit check online payday loans <a href="https://cashloansonline.us.org/#">instant payday loans</a> short term loans <a href="https://cashloansonline.us.org/#">bad credit payday loans</a>

422 baasleelo baasleelo | E-mail | Web | Pátek v 3:36 | Reagovat

24 hour payday loan <a href="https://applygoleader.com/">payday loan in</a> cash advance america <a href="https://applygoleader.com/">quick loans</a>

423 brtThuri brtThuri | E-mail | Web | Pátek v 17:02 | Reagovat

same day payday loans online <a href="https://applycheckloan.com/">payday loan</a> payday loan texas <a href=https://applycheckloan.com/>best payday loan service</a>

424 canadian pharmacy canadian pharmacy | E-mail | Web | Pátek v 21:03 | Reagovat

tree nut allergy asthma facts
http://onlinedrugstore.us.org/# online pharmacy
asthma air purifier bronchial asthma diagnosis
<a href="http://canadian-drugstore.us.org/#">canadian pharmacies</a>

Nový komentář

Přihlásit se
  Ještě nemáte vlastní web? Můžete si jej zdarma založit na Blog.cz.
 

Aktuální články

Reklama